Jan 3, 2012

Saada Haq (Tabs, Solo)

SONG: SADDA HAQ
ALBUM: ROCKSTAR
ARTIST: MOHIT CHAUHAN


(G1)
[INTRO]
e|--------------------------------------|
B|--------------------------------------|
G|--------------------------------------|
D|--------------------------------------|
A|-4---5-4-2-4---5-4-2-4~~---5-4-2-4~~--|
D|---4---------4---------4~~------------| 


e|---------|
B|--7sq.---|
G|---------|


[LEAD - 1]
[SYNTH.]
e|--------------------------------------------|
B|-----------------------------7--7-----------|
G|------4-6-------4-6------4-6--6--6--9-7-6---|
D|4-6-7----4-6-7------4-6-7-------------------|
A|--------------------------------------------|
D|--------------------------------------------|

(G2)
[GUITAR]
e|-----------------------------14--14------------------|
B|---------12-14--------12-14----14--14--17--15p14~~~--|
G|11-13-14-----11-13-14--------------------------------|
D|-----------------------------------------------------|
A|-----------------------------------------------------|
D|-----------------------------------------------------|


(G1)[PRE - VERSE] PLAY THROUGH WHOLE VERSE!
E|----------------------------------------------|
B|----------------------------------------------|
G|----------------------------------------------|
D|-44444444----77777777----22222222---00000000--|
A|-44444444----77777777----22222222---00000000--|
D|-44444444----77777777----22222222---00000000--|


Tum logo ki is duniya mein
Har kadam pe insaan galat
Main sahi samajh ke job hi kahu
Tum kehte ho galat


(G2)[RIFF - 1 just after ...ho galat...]
e|------------------------15-18-17-17h18p17---------------------|
B|---------------15-18-20--------------------20~~~--------------|
G|------15-17-19------------------------------------------------|
D|---19---------------------------------------------------------|
A|19------------------------------------------------------------|
D|--------------------------------------------------------------|


Main galat hu to fir kaun sahi
Marzi Se Jine Ke Bhi Mei


(G2)[RIFF - 2]
e|--------------------------------------------------------------|
B|----------------------------------15-18-15-16s18-20-20~~~~----|
G|----------------------15-19-17-20-----------------------------|
D|-----------15-17-18-20----------------------------------------|
A|15-17-18-20---------------------------------------------------|
D|--------------------------------------------------------------|


Kya Du Sabko Marzi Dun
Matlab Ki Dhun Sab Ka Mujhpe
(G1)
G|------x-----x-|
D|------0-----4-|
A|------0-----2-|
D|------0-----2-|


Mujse Bhi Jyada Haq Hai
(G1)
G|--x-------7----\7/|
D|--4-------7----\7/|
A|--4-------5----\7/|
D|--4-------5----\7/|


Sada haq aethe rakh


[CHORUS]
(G1)
e|-----------------------------|
B|-----------------------------|
G|--------7-7-7---4-4-4--------|
D|-4-4-4--7-7-7---4-4-4--2-2-2-|
A|-4-4-4--5-5-5---2-2-2--0-0-0-|
D|-4-4-4----------2-2-2--0-0-0-|
   d-u-d  d-u-d   d-u-d  d-u-d


Sada haq aethe rakh
Sada haq aethe rakh
Sada haq aethe rakh
Sada haq aethe rakh ]X2


(G1) (with Guitar2 over SAADA HAQ....)
E|----------------------------------------------|
B|----------------------------------------------|
G|----------------------------------------------|
D|-44444444----77777777----22222222---00000000--|
A|-44444444----77777777----22222222---00000000--|
D|-44444444----77777777----22222222---00000000--|
||
|| (G2)
e|--------------------------------------|
B|--------------------------------------|
G|--------------------------------------|
D|--------------------------------------|
A|-4---5-4-2-4---5-4-2-4~~---5-4-2-4~~--|
D|---4---------4---------4~~------------| ]X2


Na na … na na na … na na


Sada haq aethe rakh
Sada haq aethe rakh
Sada haq aethe rakh
Sada haq aethe rakh


(G2 W/ dist.)[RIFF - 3 alongwith above CHORUS  .... saada Haq...]
e|--------------------------------------------------------------|
B|-12^14------------------------------------12^14-12-10---------|
G|-----------------------------------------------------11-9s11--|
D|---------------14--14---14s16~~----19p18----------------------|
A|-------14s16-16--16--16---------------------------------------|
D|--------------------------------------------------------------|


[VERSE - 1]
(G1, G2)
e|-----------------------------|
B|-----------------------------|
G|X-X-X-X-X-X-X-X--------X-X---|
D|2-4-4-2-4-4-2-4--------0-2---|
A|2-4-4-2-4-4-2-4--------0-2---|
D|2-4-4-2-4-4-2-4--------0-2---|
    ...   ....  ..      AT END >> ghot rahe dum!


Hae In Gaddaro Mei, Ya Utharo Mei
Tum Mere Jine Ki Aadat Ka Kyun Ghot Rahe Dum
Besalika Mei Us Galika Mei
Na Jismei Haya Na jisme Sharam


Maan Bole Ke Rasme Jineka Har Jana Duniya Dushman
Sab Begana Inhe Aag Lagana
Man Bole Man Bole
Manse Jina Ya Mar Jana Hai




[LEAD]
{THANKS TO ravindrachangoer@gmail.com}

e:--------------------------------------------------------------------------|
B:--------------------------------------------------------------------------|
G:---------7/9----------7/9-9-9-------------------------------------------9-|
D:-9-11-12------9-11-12---------12-12-11-11-9----9-h11-11\9p7-9-------9-11--|
A:--------------------------------------------12-----------------9-12-------|
E:--------------------------------------------------------------------------|


e:---------9-10p9----9-9-12-12-p9---------14-16/17~--------14-16/17-17-17-17-|
B:---10-12--------12----------------14-17------------14-17-------------------|
G:11-------------------------------------------------------------------------|
D:---------------------------------------------------------------------------|
A:---------------------------------------------------------------------------|
E:---------------------------------------------------------------------------|


e:-16-16-14-14--------14-17-16-14----17---------------12---------------------|
B:--------------14-17-------------17-----14\12-10--------12p10---------------|
G:------------------------------------------------11p9--------9\7------------|
D:---------------------------------------------------------------9p7----9/11-|
A:------------------------------------------------------------------9-12-----|
E:---------------------------------------------------------------------------|


e:----------------------12---------------------------------------------------|
B:-----10-12-/14\12-p10----1010-(h12)-------9-10p9---------------------------|
G:9h11-----------------------------------11--------11-9----------------------|
D:------------------------------------11----------------9/11\9----------9/11-|
A:-------------------------------------------------------------12-9-9h12-----|
E:---------------------------------------------------------------------------|


e:--------/9-12-14-14-p12p9--------14--1414-----------------14-17-19^-^-19^~-|
B:---------------------------14-17----------17-17-p14-14-17------------------|
G:-9-9h11--------------------------------------------------------------------|
D:---------------------------------------------------------------------------|
A:---------------------------------------------------------------------------|
E:---------------------------------------------------------------------------|


e:~~19b21-r19p17-19b21r19~-16-17p16------------------------14----------------|
B:----------------------------------17-14------------------14----------------|
G:---------------------------------------16-14----14-16b18--(18)r16-14h16p14-|
D:----------------------------------------------16---------------------------|
A:---------------------------------------------------------------------------|
E:---------------------------------------------------------------------------|


e:-----------------------------------------------------|
B:-----------------------------------------------------|
G:----14---------------14------------------------------|
D:-16---16p14----14-16----16---------------------------|
A:------------16------------14~----1414/16-14----------|
E:------------------------------17------------17-14~~--|




[CHORUS]
(G1) (with Guitar2 over SAADA HAQ....)
E|----------------------------------------------|
B|----------------------------------------------|
G|----------------------------------------------|
D|-44444444----77777777----22222222---00000000--|
A|-44444444----77777777----22222222---00000000--|
D|-44444444----77777777----22222222---00000000--|


Sada haq aethe rakh
Sada haq aethe rakh
Sada haq aethe rakh
Sada haq aethe rakh ]X2


(G2)
e|--------------------------------------|
B|--------------------------------------|
G|--------------------------------------|
D|--------------------------------------|
A|-4---5-4-2-4---5-4-2-4~~---5-4-2-4~~--|
D|---4---------4---------4~~------------| 


Na na … na na na … na na


Sada haq aethe rakh
Sada haq aethe rakh
Sada haq aethe rakh
Sada haq aethe rakh


(BOTH G1 and G2)
e|----------------------------------|
B|----------------------------------|
G|----------------------------------|
D|-2-4-4-------------------------0-2|
A|-2-4-4-------------------------0-2|
D|-2-4-4-------------------------0-2|
   d-u-d                         d-d   AT END >> after ...main bhi huin nature...


O Echo Friendly Nature Ke Rakshak
Mei Bhi Hu Nature 
Rivazo Se Samajo Se Kyun 


E|-------------------------------------------|
B|-------------------------------------------|
G|-------------------------------------------|
D|-4---------------------7------------2---0--|
A|-4---------------------7------------2---0--|
D|-4---------------------7------------2---0--|
   d---------------------d------------d---d--


Hai Tu Kate Mujhe Kyun Bate Mujhe Is Tarah


E|-----|
B|-----|
G|-----|
D|-2-4-|
A|-2-4-|
D|-2-4-| [AFTER EACH LINE]
   u-d


Kyun Sach Ka Sabak Sikhaye
Jab Sach Sunni Na Paye
Sach Koi Bole Toh Tu
Niyam Kanoon Bataye


(G2)
e|--------------------------------------|
B|--------------------------------------|
G|--------------------------------------|
D|--------------------------------------|
A|-4---5-4-2-4---5-4-2-4~~---5-4-2-4~~--|
D|---4---------4---------4~~------------| 
| (with above Lead)
E|----------------------------------------------|
B|----------------------------------------------|
G|----------------------------------------------|
D|-44444444----77777777----22222222---00000000--|
A|-44444444----77777777----22222222---00000000--|
D|-44444444----77777777----22222222---00000000--|


Tera Darr, Tera Pyaar, Teri Waah, Tu Hi Rakh
Rakh Sale


[SOLO - 2]
(G2 with Distortion)


e|----------------------------------------------|
B|--------7---------------------7---------------|
G|---7-10---10-7-5^6~~-----7-10---10-7-5^6~~6~~-|
D|11--------------------11----------------------|
A|----------------------------------------------|
D|----------------------------------------------|


e|------------------------------------------------------------|
B|----------------------------------------9h10p9--------------|
G|----------------------9-11-11-9-11-9-11--------11-9-11s13---|
D|--------------9-11-12---------------------------------------|
A|---------9-12-----------------------------------------------|
D|-9-11-11----------------------------------------------------|


.............................................B E N D I N G.....
e|------------------------------------------15~17~18~20^22v20-|
B|----------12-10-9h10p9-----------13/14~14~------------------|
G|-13S14-14--------------11-9-9s11-17/18~18~------------------|
D|------------------------------------------------------------|
A|------------------------------------------------------------|
D|------------------------------------------------------------|


e|-20s18s17-13^15--|
B|-----------------|
G|-----------------|
D|-----------------|
A|-----------------|
D|-----------------|


Sada Haq Athe Rakh [x4]
Sada Haq Athe Rakh [x3]




NOTE:
1.
GUITAR SQUELLING TECHNIQUE USED HERE! 
To DO THIS FIRST BEND YOUR VIBRATO INSIDE 
THEN PINCH B STRING ON 7TH FRET AND BRING VIBRATO OUTWARD!
2.
ON EACH NOTE THERE IS " d-u " NOTATION.
d: Down
u: Up
3.
G1: GUITAR 1
G2: GUITAR 2
4:
ON A NOTE THERE IS " .... " IT MEAN PALM MUTE!

5 comments:

  1. yar main solo jo "Mann se jina ya marjana" k baad h wo to h hi ni... :( but still thanks....

    ReplyDelete
  2. you should have to post the sign too (s,v,r,b,(8)).. then it will complete

    ReplyDelete
    Replies
    1. s: slide
      v: vibration
      r: release after bend
      b: bend
      (8): on fret.

      Delete

Please Share your comment(s) with us, As your comments are more valuable than you think!

This Page has'een Strummed

CON - TAC - TOE !

rahuldhatwalia90@gmail.com